Friday, April 10, 2009

Aankh hai bhari bhari--------(TAKH).

Method 1 

first hold the F chord 

 e|------------------------------------|

B|-----------1------------------------| 

G|--------------2--0-----0^2----------| 

D|--3-----3-----------3-------3-------| 

A|-----3------------------------------|

 E|------------------------------------| 

Repeat 

B|------------------------------------| 

G|--------------0---------------------| 

D|--3--2--0--0-----0------------------| 

A|--------------------3--1/3--1-------| 

 

e|------------------------------------| 

B|-----------1------------------------| 

G|--------------2--0-----0^2----------| 

D|--3-----3-----------3-------3-------| 

A|-----3------------------------------| 

E|------------------------------------| 

Method 2

E|--------6---9--6-----------7/9--6-------------------|
B|--7--9------------9--7--------------9---------------|
G|----------------------------------------------------|
f# g# a# c# a# g# f# b/c# a# g#
aankh hai bhari bhari aur tum

E|-----------6---9---6------6-------------------------|
B|--7--7--9-------------9------9---7------------------|
G|----------------------------------------------------|
f# f# g# a# c# a# g# a# g# f#
muskuraane ki baat karte ho

No comments:

Post a Comment

Post a Comment